  0
SECTION
  2
HEADER
  9
$ACADVER
  1
AC1015
  9
$ACADMAINTVER
 70
     6
  9
$DWGCODEPAGE
  3
ANSI_1254
  9
$INSBASE
 10
0.0
 20
0.0
 30
0.0
  9
$EXTMIN
 10
0.0
 20
0.0
 30
0.0
  9
$EXTMAX
 10
279.4
 20
215.9
 30
0.0
  9
$LIMMIN
 10
0.0
 20
0.0
  9
$LIMMAX
 10
279.4
 20
215.9
  9
$ORTHOMODE
 70
     0
  9
$REGENMODE
 70
     1
  9
$FILLMODE
 70
     1
  9
$QTEXTMODE
 70
     0
  9
$MIRRTEXT
 70
     1
  9
$LTSCALE
 40
1.0
  9
$ATTMODE
 70
     1
  9
$TEXTSIZE
 40
3.5
  9
$TRACEWID
 40
1.0
  9
$TEXTSTYLE
  7
Standard
  9
$CLAYER
  8
0
  9
$CELTYPE
  6
ByLayer
  9
$CECOLOR
 62
   256
  9
$CELTSCALE
 40
1.0
  9
$DISPSILH
 70
     0
  9
$DIMSCALE
 40
1.0
  9
$DIMASZ
 40
3.5
  9
$DIMEXO
 40
1.0
  9
$DIMDLI
 40
3.75
  9
$DIMRND
 40
0.0
  9
$DIMDLE
 40
0.0
  9
$DIMEXE
 40
1.0
  9
$DIMTP
 40
0.0
  9
$DIMTM
 40
0.0
  9
$DIMTXT
 40
3.5
  9
$DIMCEN
 40
2.5
  9
$DIMTSZ
 40
0.0
  9
$DIMTOL
 70
     0
  9
$DIMLIM
 70
     0
  9
$DIMTIH
 70
     1
  9
$DIMTOH
 70
     1
  9
$DIMSE1
 70
     0
  9
$DIMSE2
 70
     0
  9
$DIMTAD
 70
     1
  9
$DIMZIN
 70
     0
  9
$DIMBLK
  1

  9
$DIMASO
 70
     1
  9
$DIMSHO
 70
     1
  9
$DIMPOST
  1

  9
$DIMAPOST
  1

  9
$DIMALT
 70
     0
  9
$DIMALTD
 70
     3
  9
$DIMALTF
 40
0.0393700787
  9
$DIMLFAC
 40
1.0
  9
$DIMTOFL
 70
     1
  9
$DIMTVP
 40
0.0
  9
$DIMTIX
 70
     0
  9
$DIMSOXD
 70
     0
  9
$DIMSAH
 70
     0
  9
$DIMBLK1
  1

  9
$DIMBLK2
  1

  9
$DIMSTYLE
  2
ISO-25
  9
$DIMCLRD
 70
     0
  9
$DIMCLRE
 70
     0
  9
$DIMCLRT
 70
     0
  9
$DIMTFAC
 40
1.0
  9
$DIMGAP
 40
1.524
  9
$DIMJUST
 70
     0
  9
$DIMSD1
 70
     0
  9
$DIMSD2
 70
     0
  9
$DIMTOLJ
 70
     0
  9
$DIMTZIN
 70
     0
  9
$DIMALTZ
 70
     0
  9
$DIMALTTZ
 70
     0
  9
$DIMUPT
 70
     0
  9
$DIMDEC
 70
     2
  9
$DIMTDEC
 70
     2
  9
$DIMALTU
 70
     2
  9
$DIMALTTD
 70
     3
  9
$DIMTXSTY
  7
Standard
  9
$DIMAUNIT
 70
     0
  9
$DIMADEC
 70
     2
  9
$DIMALTRND
 40
0.0
  9
$DIMAZIN
 70
     0
  9
$DIMDSEP
 70
    44
  9
$DIMATFIT
 70
     3
  9
$DIMFRAC
 70
     0
  9
$DIMLDRBLK
  1

  9
$DIMLUNIT
 70
     2
  9
$DIMLWD
 70
    -2
  9
$DIMLWE
 70
    -2
  9
$DIMTMOVE
 70
     0
  9
$LUNITS
 70
     2
  9
$LUPREC
 70
     2
  9
$SKETCHINC
 40
1.0
  9
$FILLETRAD
 40
10.0
  9
$AUNITS
 70
     0
  9
$AUPREC
 70
     2
  9
$MENU
  1
.
  9
$ELEVATION
 40
0.0
  9
$PELEVATION
 40
0.0
  9
$THICKNESS
 40
0.0
  9
$LIMCHECK
 70
     0
  9
$CHAMFERA
 40
0.0
  9
$CHAMFERB
 40
0.0
  9
$CHAMFERC
 40
0.0
  9
$CHAMFERD
 40
0.0
  9
$SKPOLY
 70
     0
  9
$TDCREATE
 40
2460608.530317917
  9
$TDUCREATE
 40
2460608.405317917
  9
$TDUPDATE
 40
2460608.530318102
  9
$TDUUPDATE
 40
2460608.405318102
  9
$TDINDWG
 40
0.0000000116
  9
$TDUSRTIMER
 40
0.0000000116
  9
$USRTIMER
 70
     1
  9
$ANGBASE
 50
0.0
  9
$ANGDIR
 70
     0
  9
$PDMODE
 70
     0
  9
$PDSIZE
 40
-1.0
  9
$PLINEWID
 40
0.0
  9
$SPLFRAME
 70
     0
  9
$SPLINETYPE
 70
     6
  9
$SPLINESEGS
 70
     8
  9
$HANDSEED
  5
D2
  9
$SURFTAB1
 70
     6
  9
$SURFTAB2
 70
     6
  9
$SURFTYPE
 70
     6
  9
$SURFU
 70
     6
  9
$SURFV
 70
     6
  9
$UCSBASE
  2

  9
$UCSNAME
  2

  9
$UCSORG
 10
0.0
 20
0.0
 30
0.0
  9
$UCSXDIR
 10
1.0
 20
0.0
 30
0.0
  9
$UCSYDIR
 10
0.0
 20
1.0
 30
0.0
  9
$UCSORTHOREF
  2

  9
$UCSORTHOVIEW
 70
     0
  9
$UCSORGTOP
 10
0.0
 20
0.0
 30
0.0
  9
$UCSORGBOTTOM
 10
0.0
 20
0.0
 30
0.0
  9
$UCSORGLEFT
 10
0.0
 20
0.0
 30
0.0
  9
$UCSORGRIGHT
 10
0.0
 20
0.0
 30
0.0
  9
$UCSORGFRONT
 10
0.0
 20
0.0
 30
0.0
  9
$UCSORGBACK
 10
0.0
 20
0.0
 30
0.0
  9
$PUCSBASE
  2

  9
$PUCSNAME
  2

  9
$PUCSORG
 10
0.0
 20
0.0
 30
0.0
  9
$PUCSXDIR
 10
1.0
 20
0.0
 30
0.0
  9
$PUCSYDIR
 10
0.0
 20
1.0
 30
0.0
  9
$PUCSORTHOREF
  2

  9
$PUCSORTHOVIEW
 70
     0
  9
$PUCSORGTOP
 10
0.0
 20
0.0
 30
0.0
  9
$PUCSORGBOTTOM
 10
0.0
 20
0.0
 30
0.0
  9
$PUCSORGLEFT
 10
0.0
 20
0.0
 30
0.0
  9
$PUCSORGRIGHT
 10
0.0
 20
0.0
 30
0.0
  9
$PUCSORGFRONT
 10
0.0
 20
0.0
 30
0.0
  9
$PUCSORGBACK
 10
0.0
 20
0.0
 30
0.0
  9
$USERI1
 70
     0
  9
$USERI2
 70
     0
  9
$USERI3
 70
     0
  9
$USERI4
 70
     0
  9
$USERI5
 70
     0
  9
$USERR1
 40
0.0
  9
$USERR2
 40
0.0
  9
$USERR3
 40
0.0
  9
$USERR4
 40
0.0
  9
$USERR5
 40
0.0
  9
$WORLDVIEW
 70
     1
  9
$SHADEDGE
 70
     3
  9
$SHADEDIF
 70
    70
  9
$TILEMODE
 70
     1
  9
$MAXACTVP
 70
    64
  9
$PINSBASE
 10
0.0
 20
0.0
 30
0.0
  9
$PLIMCHECK
 70
     0
  9
$PEXTMIN
 10
1.0000000000E+20
 20
1.0000000000E+20
 30
1.0000000000E+20
  9
$PEXTMAX
 10
-1.0000000000E+20
 20
-1.0000000000E+20
 30
-1.0000000000E+20
  9
$PLIMMIN
 10
0.0
 20
0.0
  9
$PLIMMAX
 10
420.0
 20
297.0
  9
$UNITMODE
 70
     0
  9
$VISRETAIN
 70
     1
  9
$PLINEGEN
 70
     0
  9
$PSLTSCALE
 70
     1
  9
$TREEDEPTH
 70
  3020
  9
$CMLSTYLE
  2
Standard
  9
$CMLJUST
 70
     0
  9
$CMLSCALE
 40
20.0
  9
$PROXYGRAPHICS
 70
     1
  9
$MEASUREMENT
 70
     1
  9
$CELWEIGHT
370
    -1
  9
$ENDCAPS
280
     0
  9
$JOINSTYLE
280
     0
  9
$LWDISPLAY
290
     1
  9
$INSUNITS
 70
     4
  9
$HYPERLINKBASE
  1

  9
$STYLESHEET
  1

  9
$XEDIT
290
     1
  9
$CEPSNTYPE
380
     0
  9
$PSTYLEMODE
290
     1
  9
$FINGERPRINTGUID
  2
{e090a237-63ff-451a-bc8f-49eb2a7c91ab}
  9
$VERSIONGUID
  2
{FAEB1C32-E019-11D5-929B-00C0DF256EC4}
  9
$EXTNAMES
290
     1
  9
$PSVPSCALE
 40
0.0
  9
$OLESTARTUP
290
     0
  0
ENDSEC
  0
SECTION
  2
CLASSES
  0
CLASS
  1
ACDBDICTIONARYWDFLT
  2
AcDbDictionaryWithDefault
  3
ObjectDBX Classes
 90
        0
280
     0
281
     0
  0
CLASS
  1
VISUALSTYLE
  2
AcDbVisualStyle
  3
ObjectDBX Classes
 90
     4095
280
     0
281
     0
  0
CLASS
  1
MATERIAL
  2
AcDbMaterial
  3
ObjectDBX Classes
 90
     1153
280
     0
281
     0
  0
CLASS
  1
SCALE
  2
AcDbScale
  3
ObjectDBX Classes
 90
     1153
280
     0
281
     0
  0
CLASS
  1
TABLESTYLE
  2
AcDbTableStyle
  3
ObjectDBX Classes
 90
     4095
280
     0
281
     0
  0
CLASS
  1
MLEADERSTYLE
  2
AcDbMLeaderStyle
  3
ACDB_MLEADERSTYLE_CLASS
 90
     4095
280
     0
281
     0
  0
CLASS
  1
SUN
  2
AcDbSun
  3
SCENEOE
 90
     1153
280
     0
281
     0
  0
CLASS
  1
ACDBPLACEHOLDER
  2
AcDbPlaceHolder
  3
ObjectDBX Classes
 90
        0
280
     0
281
     0
  0
CLASS
  1
LAYOUT
  2
AcDbLayout
  3
ObjectDBX Classes
 90
        0
280
     0
281
     0
  0
ENDSEC
  0
SECTION
  2
TABLES
  0
TABLE
  2
VPORT
  5
8
330
0
100
AcDbSymbolTable
 70
     1
  0
VPORT
  5
29
330
8
100
AcDbSymbolTableRecord
100
AcDbViewportTableRecord
  2
*Active
 70
     0
 10
0.0
 20
0.0
 11
1.0
 21
1.0
 12
139.7
 22
107.95
 13
0.0
 23
0.0
 14
10.0
 24
10.0
 15
10.0
 25
10.0
 16
0.0
 26
0.0
 36
1.0
 17
0.0
 27
0.0
 37
0.0
 40
215.9
 41
1.2941176471
 42
50.0
 43
0.0
 44
0.0
 50
0.0
 51
0.0
 71
     0
 72
  2000
 73
     1
 74
     3
 75
     0
 76
     0
 77
     0
 78
     0
281
     0
 65
     1
110
0.0
120
0.0
130
0.0
111
1.0
121
0.0
131
0.0
112
0.0
122
1.0
132
0.0
 79
     0
146
0.0
  0
ENDTAB
  0
TABLE
  2
LTYPE
  5
5
330
0
100
AcDbSymbolTable
 70
     6
  0
LTYPE
  5
14
330
5
100
AcDbSymbolTableRecord
100
AcDbLinetypeTableRecord
  2
ByBlock
 70
     0
  3

 72
    65
 73
     0
 40
0.0
  0
LTYPE
  5
15
330
5
100
AcDbSymbolTableRecord
100
AcDbLinetypeTableRecord
  2
ByLayer
 70
     0
  3

 72
    65
 73
     0
 40
0.0
  0
LTYPE
  5
16
330
5
100
AcDbSymbolTableRecord
100
AcDbLinetypeTableRecord
  2
Continuous
 70
     0
  3
Solid line
 72
    65
 73
     0
 40
0.0
  0
LTYPE
  5
6E
330
5
100
AcDbSymbolTableRecord
100
AcDbLinetypeTableRecord
  2
HIDDEN
 70
     0
  3
Hidden __ __ __ __ __ __ __ __ __ __ __ __ __ __
 72
    65
 73
     2
 40
1.905
 49
1.27
 74
     0
 49
-0.635
 74
     0
  0
LTYPE
  5
6F
330
5
100
AcDbSymbolTableRecord
100
AcDbLinetypeTableRecord
  2
PHANTOM
 70
     0
  3
Phantom ______  __  __  ______  __  __  ______
 72
    65
 73
     6
 40
12.7
 49
6.35
 74
     0
 49
-1.27
 74
     0
 49
1.27
 74
     0
 49
-1.27
 74
     0
 49
1.27
 74
     0
 49
-1.27
 74
     0
  0
LTYPE
  5
70
330
5
100
AcDbSymbolTableRecord
100
AcDbLinetypeTableRecord
  2
CENTER
 70
     0
  3
Center ____ _ ____ _ ____ _ ____ _ ____ _ ____
 72
    65
 73
     4
 40
10.16
 49
6.35
 74
     0
 49
-1.27
 74
     0
 49
1.27
 74
     0
 49
-1.27
 74
     0
  0
LTYPE
  5
71
330
5
100
AcDbSymbolTableRecord
100
AcDbLinetypeTableRecord
  2
CENTERX2
 70
     0
  3
Center (2x) ________  __  ________  __  _____
 72
    65
 73
     4
 40
20.32
 49
12.7
 74
     0
 49
-2.54
 74
     0
 49
2.54
 74
     0
 49
-2.54
 74
     0
  0
LTYPE
  5
72
330
5
100
AcDbSymbolTableRecord
100
AcDbLinetypeTableRecord
  2
DOT2
 70
     0
  3
Dot (.5x) ........................................
 72
    65
 73
     2
 40
0.635
 49
0.0
 74
     0
 49
-0.635
 74
     0
  0
ENDTAB
  0
TABLE
  2
LAYER
  5
2
330
0
100
AcDbSymbolTable
 70
    17
  0
LAYER
  5
10
330
2
100
AcDbSymbolTableRecord
100
AcDbLayerTableRecord
  2
0
 70
     0
 62
     7
  6
Continuous
370
    -3
390
F
  0
LAYER
  5
73
330
2
100
AcDbSymbolTableRecord
100
AcDbLayerTableRecord
  2
FORMAT
 70
     0
 62
     7
  6
Continuous
370
    -3
390
F
  0
LAYER
  5
74
330
2
100
AcDbSymbolTableRecord
100
AcDbLayerTableRecord
  2
YARDIMCI_GEOMETRI
 70
     0
 62
    -6
  6
Continuous
290
     0
370
    -3
390
F
  0
LAYER
  5
75
330
2
100
AcDbSymbolTableRecord
100
AcDbLayerTableRecord
  2
SAYFA_CERCEVESI
 70
     0
 62
     7
  6
Continuous
370
    25
390
F
  0
LAYER
  5
76
330
2
100
AcDbSymbolTableRecord
100
AcDbLayerTableRecord
  2
ANTET
 70
     0
 62
     7
  6
Continuous
370
    -3
390
F
  0
LAYER
  5
77
330
2
100
AcDbSymbolTableRecord
100
AcDbLayerTableRecord
  2
OLCU
 70
     0
 62
   150
  6
Continuous
370
    -3
390
F
  0
LAYER
  5
78
330
2
100
AcDbSymbolTableRecord
100
AcDbLayerTableRecord
  2
METIN
 70
     0
 62
    96
  6
Continuous
370
    -3
390
F
  0
LAYER
  5
79
330
2
100
AcDbSymbolTableRecord
100
AcDbLayerTableRecord
  2
BALON
 70
     0
 62
     5
  6
Continuous
370
    -3
390
F
  0
LAYER
  5
7A
330
2
100
AcDbSymbolTableRecord
100
AcDbLayerTableRecord
  2
VURGU
 70
     0
 62
     7
  6
Continuous
370
    -3
390
F
  0
LAYER
  5
7B
330
2
100
AcDbSymbolTableRecord
100
AcDbLayerTableRecord
  2
SILIK
 70
     0
 62
     7
  6
Continuous
370
    -3
390
F
  0
LAYER
  5
7C
330
2
100
AcDbSymbolTableRecord
100
AcDbLayerTableRecord
  2
MODEL
 70
     0
 62
     7
  6
Continuous
370
    -3
390
F
  0
LAYER
  5
7D
330
2
100
AcDbSymbolTableRecord
100
AcDbLayerTableRecord
  2
DETAYLANDıRMA
 70
     0
 62
   190
  6
Continuous
370
    -3
390
F
  0
LAYER
  5
7E
330
2
100
AcDbSymbolTableRecord
100
AcDbLayerTableRecord
  2
TOLERANS
 70
     0
 62
   230
  6
Continuous
370
    -3
390
F
  0
LAYER
  5
7F
330
2
100
AcDbSymbolTableRecord
100
AcDbLayerTableRecord
  2
MERKEZ_CIZGILERI
 70
     0
 62
    30
  6
Continuous
370
    -3
390
F
  0
LAYER
  5
80
330
2
100
AcDbSymbolTableRecord
100
AcDbLayerTableRecord
  2
KESIT-DETAY_CIZGILERI
 70
     0
 62
     7
  6
Continuous
370
    -3
390
F
  0
LAYER
  5
81
330
2
100
AcDbSymbolTableRecord
100
AcDbLayerTableRecord
  2
\U+041E\U+0421\U+0415\U+0412\U+042B\U+0415
 70
     0
 62
     7
  6
Continuous
370
    -3
390
F
  0
LAYER
  5
82
330
2
100
AcDbSymbolTableRecord
100
AcDbLayerTableRecord
  2
\U+0412\U+041E\U+0414\U+042F\U+041D\U+042B\U+0415_\U+0417\U+041D\U+0410\U+041A\U+0418
 70
     0
 62
    11
  6
Continuous
370
    -3
390
F
  0
ENDTAB
  0
TABLE
  2
STYLE
  5
3
330
0
100
AcDbSymbolTable
 70
     1
  0
STYLE
  5
11
330
3
100
AcDbSymbolTableRecord
100
AcDbTextStyleTableRecord
  2
Standard
 70
     0
 40
0.0
 41
1.0
 50
0.0
 71
     0
 42
3.5
  3
txt
  4

  0
ENDTAB
  0
TABLE
  2
VIEW
  5
6
330
0
100
AcDbSymbolTable
 70
     0
  0
ENDTAB
  0
TABLE
  2
UCS
  5
7
330
0
100
AcDbSymbolTable
 70
     0
  0
ENDTAB
  0
TABLE
  2
APPID
  5
9
330
0
100
AcDbSymbolTable
 70
     1
  0
APPID
  5
12
330
9
100
AcDbSymbolTableRecord
100
AcDbRegAppTableRecord
  2
ACAD
 70
     0
  0
ENDTAB
  0
TABLE
  2
DIMSTYLE
  5
A
330
0
100
AcDbSymbolTable
 70
     1
100
AcDbDimStyleTable
  0
DIMSTYLE
105
27
330
A
100
AcDbSymbolTableRecord
100
AcDbDimStyleTableRecord
  2
ISO-25
 70
     0
 41
2.5
 42
0.625
 43
3.75
 44
1.25
 73
     0
 74
     0
 77
     1
 78
     8
140
2.5
141
2.5
143
0.0393700787
147
0.625
171
     3
172
     1
178
     0
271
     2
272
     2
274
     3
278
    44
283
     0
284
     8
340
11
  0
ENDTAB
  0
TABLE
  2
BLOCK_RECORD
  5
1
330
0
100
AcDbSymbolTable
 70
     3
  0
BLOCK_RECORD
  5
1F
330
1
100
AcDbSymbolTableRecord
100
AcDbBlockTableRecord
  2
*Model_Space
340
22
  0
BLOCK_RECORD
  5
1B
330
1
100
AcDbSymbolTableRecord
100
AcDbBlockTableRecord
  2
*Paper_Space
340
1E
  0
BLOCK_RECORD
  5
23
330
1
100
AcDbSymbolTableRecord
100
AcDbBlockTableRecord
  2
*Paper_Space0
340
26
  0
BLOCK_RECORD
  5
88
330
1
100
AcDbSymbolTableRecord
100
AcDbBlockTableRecord
  2
SW_CENTERMARKSYMBOL_0
340
0
102
{BLKREFS
331
93
102
}
  0
BLOCK_RECORD
  5
9E
330
1
100
AcDbSymbolTableRecord
100
AcDbBlockTableRecord
  2
SW_CENTERMARKSYMBOL_1
340
0
102
{BLKREFS
331
A9
102
}
  0
ENDTAB
  0
ENDSEC
  0
SECTION
  2
BLOCKS
  0
BLOCK
  5
20
330
1F
100
AcDbEntity
  8
0
100
AcDbBlockBegin
  2
*Model_Space
 70
     0
 10
0.0
 20
0.0
 30
0.0
  3
*Model_Space
  1

  0
ENDBLK
  5
21
330
1F
100
AcDbEntity
  8
0
100
AcDbBlockEnd
  0
BLOCK
  5
1C
330
1B
100
AcDbEntity
 67
     1
  8
0
100
AcDbBlockBegin
  2
*Paper_Space
 70
     0
 10
0.0
 20
0.0
 30
0.0
  3
*Paper_Space
  1

  0
ENDBLK
  5
1D
330
1B
100
AcDbEntity
 67
     1
  8
0
100
AcDbBlockEnd
  0
BLOCK
  5
24
330
23
100
AcDbEntity
  8
0
100
AcDbBlockBegin
  2
*Paper_Space0
 70
     0
 10
0.0
 20
0.0
 30
0.0
  3
*Paper_Space0
  1

  0
ENDBLK
  5
25
330
23
100
AcDbEntity
  8
0
100
AcDbBlockEnd
  0
BLOCK
  5
89
330
88
100
AcDbEntity
  8
0
100
AcDbBlockBegin
  2
SW_CENTERMARKSYMBOL_0
 70
     0
 10
0.0
 20
0.0
 30
0.0
  3
SW_CENTERMARKSYMBOL_0
  1

  0
LINE
  5
8B
330
88
100
AcDbEntity
  8
FORMAT
 62
     0
100
AcDbLine
 10
0.0
 20
0.0
 30
0.0
 11
0.0
 21
2.5
 31
0.0
  0
LINE
  5
8C
330
88
100
AcDbEntity
  8
FORMAT
 62
     0
100
AcDbLine
 10
0.0
 20
0.0
 30
0.0
 11
-2.5
 21
0.0
 31
0.0
  0
LINE
  5
8D
330
88
100
AcDbEntity
  8
FORMAT
 62
     0
100
AcDbLine
 10
0.0
 20
0.0
 30
0.0
 11
0.0
 21
-2.5
 31
0.0
  0
LINE
  5
8E
330
88
100
AcDbEntity
  8
FORMAT
 62
     0
100
AcDbLine
 10
0.0
 20
0.0
 30
0.0
 11
2.5
 21
0.0
 31
0.0
  0
LINE
  5
8F
330
88
100
AcDbEntity
  8
FORMAT
 62
     0
100
AcDbLine
 10
0.0
 20
5.0
 30
0.0
 11
0.0
 21
65.0
 31
0.0
  0
LINE
  5
90
330
88
100
AcDbEntity
  8
FORMAT
 62
     0
100
AcDbLine
 10
-5.0
 20
0.0
 30
0.0
 11
-65.0
 21
0.0
 31
0.0
  0
LINE
  5
91
330
88
100
AcDbEntity
  8
FORMAT
 62
     0
100
AcDbLine
 10
0.0
 20
-5.0
 30
0.0
 11
0.0
 21
-65.0
 31
0.0
  0
LINE
  5
92
330
88
100
AcDbEntity
  8
FORMAT
 62
     0
100
AcDbLine
 10
5.0
 20
0.0
 30
0.0
 11
65.0
 21
0.0
 31
0.0
  0
ENDBLK
  5
8A
330
88
100
AcDbEntity
  8
0
100
AcDbBlockEnd
  0
BLOCK
  5
9F
330
9E
100
AcDbEntity
  8
0
100
AcDbBlockBegin
  2
SW_CENTERMARKSYMBOL_1
 70
     0
 10
0.0
 20
0.0
 30
0.0
  3
SW_CENTERMARKSYMBOL_1
  1

  0
LINE
  5
A1
330
9E
100
AcDbEntity
  8
FORMAT
 62
     0
100
AcDbLine
 10
0.0
 20
0.0
 30
0.0
 11
0.0
 21
2.5
 31
0.0
  0
LINE
  5
A2
330
9E
100
AcDbEntity
  8
FORMAT
 62
     0
100
AcDbLine
 10
0.0
 20
0.0
 30
0.0
 11
-2.5
 21
0.0
 31
0.0
  0
LINE
  5
A3
330
9E
100
AcDbEntity
  8
FORMAT
 62
     0
100
AcDbLine
 10
0.0
 20
0.0
 30
0.0
 11
0.0
 21
-2.5
 31
0.0
  0
LINE
  5
A4
330
9E
100
AcDbEntity
  8
FORMAT
 62
     0
100
AcDbLine
 10
0.0
 20
0.0
 30
0.0
 11
2.5
 21
0.0
 31
0.0
  0
LINE
  5
A5
330
9E
100
AcDbEntity
  8
FORMAT
 62
     0
100
AcDbLine
 10
0.0
 20
5.0
 30
0.0
 11
0.0
 21
65.0
 31
0.0
  0
LINE
  5
A6
330
9E
100
AcDbEntity
  8
FORMAT
 62
     0
100
AcDbLine
 10
-5.0
 20
0.0
 30
0.0
 11
-65.0
 21
0.0
 31
0.0
  0
LINE
  5
A7
330
9E
100
AcDbEntity
  8
FORMAT
 62
     0
100
AcDbLine
 10
0.0
 20
-5.0
 30
0.0
 11
0.0
 21
-65.0
 31
0.0
  0
LINE
  5
A8
330
9E
100
AcDbEntity
  8
FORMAT
 62
     0
100
AcDbLine
 10
5.0
 20
0.0
 30
0.0
 11
65.0
 21
0.0
 31
0.0
  0
ENDBLK
  5
A0
330
9E
100
AcDbEntity
  8
0
100
AcDbBlockEnd
  0
ENDSEC
  0
SECTION
  2
ENTITIES
  0
LINE
  5
83
330
1F
100
AcDbEntity
  8
0
  6
Continuous
 62
     7
370
    25
100
AcDbLine
 10
77.0874930577
 20
46.928471786
 30
0.0
 11
255.0874930577
 21
46.928471786
 31
0.0
  0
LINE
  5
84
330
1F
100
AcDbEntity
  8
0
  6
Continuous
 62
     7
370
    25
100
AcDbLine
 10
255.0874930577
 20
171.928471786
 30
0.0
 11
77.0874930577
 21
171.928471786
 31
0.0
  0
CIRCLE
  5
85
330
1F
100
AcDbEntity
  8
0
  6
Continuous
 62
     7
370
    25
100
AcDbCircle
 10
77.0874930577
 20
109.428471786
 30
0.0
 40
51.09999999999999
  0
CIRCLE
  5
86
330
1F
100
AcDbEntity
  8
0
  6
Continuous
 62
     7
370
    25
100
AcDbCircle
 10
77.0874930577
 20
109.428471786
 30
0.0
 40
62.5
  0
LINE
  5
87
330
1F
100
AcDbEntity
  8
0
  6
Continuous
 62
     7
370
    25
100
AcDbLine
 10
255.0874930577
 20
171.928471786
 30
0.0
 11
255.0874930577
 21
46.928471786
 31
0.0
  0
INSERT
  5
93
330
1F
100
AcDbEntity
  8
FORMAT
 62
     7
100
AcDbBlockReference
  2
SW_CENTERMARKSYMBOL_0
 10
77.0874930577
 20
109.428471786
 30
0.0
  0
LINE
  5
94
330
1F
100
AcDbEntity
  8
0
  6
Continuous
 62
     7
370
    25
100
AcDbLine
 10
-250.7396373293
 20
171.928471786
 30
0.0
 11
-427.7396373293
 21
171.928471786
 31
0.0
  0
LINE
  5
95
330
1F
100
AcDbEntity
  8
0
  6
Continuous
 62
     7
370
    25
100
AcDbLine
 10
-73.7396373293
 20
171.928471786
 30
0.0
 11
-250.7396373293
 21
171.928471786
 31
0.0
  0
LINE
  5
96
330
1F
100
AcDbEntity
  8
0
  6
Continuous
 62
     7
370
    25
100
AcDbLine
 10
-250.7396373293
 20
46.928471786
 30
0.0
 11
-73.7396373293
 21
46.928471786
 31
0.0
  0
LINE
  5
97
330
1F
100
AcDbEntity
  8
0
  6
Continuous
 62
     7
370
    25
100
AcDbLine
 10
-427.7396373293
 20
46.928471786
 30
0.0
 11
-250.7396373293
 21
46.928471786
 31
0.0
  0
CIRCLE
  5
98
330
1F
100
AcDbEntity
  8
0
  6
Continuous
 62
     7
370
    25
100
AcDbCircle
 10
-250.7396373293
 20
109.428471786
 30
0.0
 40
51.09999999999997
  0
CIRCLE
  5
99
330
1F
100
AcDbEntity
  8
0
  6
Continuous
 62
     7
370
    25
100
AcDbCircle
 10
-250.7396373293
 20
109.428471786
 30
0.0
 40
62.49999999999997
  0
LINE
  5
9A
330
1F
100
AcDbEntity
  8
0
  6
Continuous
 62
     7
370
    25
100
AcDbLine
 10
-427.7396373293
 20
109.428471786
 30
0.0
 11
-427.7396373293
 21
171.928471786
 31
0.0
  0
LINE
  5
9B
330
1F
100
AcDbEntity
  8
0
  6
Continuous
 62
     7
370
    25
100
AcDbLine
 10
-427.7396373293
 20
46.928471786
 30
0.0
 11
-427.7396373293
 21
109.428471786
 31
0.0
  0
LINE
  5
9C
330
1F
100
AcDbEntity
  8
0
  6
Continuous
 62
     7
370
    25
100
AcDbLine
 10
-73.7396373293
 20
109.428471786
 30
0.0
 11
-73.7396373293
 21
171.928471786
 31
0.0
  0
LINE
  5
9D
330
1F
100
AcDbEntity
  8
0
  6
Continuous
 62
     7
370
    25
100
AcDbLine
 10
-73.7396373293
 20
46.928471786
 30
0.0
 11
-73.7396373293
 21
109.428471786
 31
0.0
  0
INSERT
  5
A9
330
1F
100
AcDbEntity
  8
FORMAT
 62
     7
100
AcDbBlockReference
  2
SW_CENTERMARKSYMBOL_1
 10
-250.7396373293
 20
109.428471786
 30
0.0
  0
LINE
  5
AA
330
1F
100
AcDbEntity
  8
0
  6
Continuous
 62
     7
370
    25
100
AcDbLine
 10
139.5874930577
 20
484.7782293829
 30
0.0
 11
139.5874930577
 21
599.2782293829
 31
0.0
  0
LINE
  5
AB
330
1F
100
AcDbEntity
  8
0
  6
Continuous
 62
     7
370
    25
100
AcDbLine
 10
139.5874930577
 20
245.2782293829
 30
0.0
 11
139.5874930577
 21
359.7782293829
 31
0.0
  0
LINE
  5
AC
330
1F
100
AcDbEntity
  8
0
  6
Continuous
 62
     7
370
    25
100
AcDbLine
 10
14.5874930577
 20
599.2782293829
 30
0.0
 11
14.5874930577
 21
245.2782293829
 31
0.0
  0
LINE
  5
AD
330
1F
100
AcDbEntity
  8
0
  6
Continuous
 62
     7
370
    25
100
AcDbLine
 10
139.5874930577
 20
359.7782293829
 30
0.0
 11
255.0874930577
 21
359.7782293829
 31
0.0
  0
LINE
  5
AE
330
1F
100
AcDbEntity
  8
0
  6
Continuous
 62
     7
370
    25
100
AcDbLine
 10
255.0874930577
 20
484.7782293829
 30
0.0
 11
139.5874930577
 21
484.7782293829
 31
0.0
  0
LINE
  5
AF
330
1F
100
AcDbEntity
  8
0
  6
Continuous
 62
     7
370
    25
100
AcDbLine
 10
139.5874930577
 20
484.7782293829
 30
0.0
 11
77.0874930577
 21
422.2782293829
 31
0.0
  0
LINE
  5
B0
330
1F
100
AcDbEntity
  8
0
  6
Continuous
 62
     7
370
    25
100
AcDbLine
 10
77.0874930577
 20
422.2782293829
 30
0.0
 11
139.5874930577
 21
359.7782293829
 31
0.0
  0
LINE
  5
B1
330
1F
100
AcDbEntity
  8
0
  6
Continuous
 62
     7
370
    25
100
AcDbLine
 10
14.5874930577
 20
599.2782293829
 30
0.0
 11
139.5874930577
 21
599.2782293829
 31
0.0
  0
LINE
  5
B2
330
1F
100
AcDbEntity
  8
0
  6
Continuous
 62
     7
370
    25
100
AcDbLine
 10
14.5874930577
 20
245.2782293829
 30
0.0
 11
139.5874930577
 21
245.2782293829
 31
0.0
  0
LINE
  5
B3
330
1F
100
AcDbEntity
  8
0
  6
Continuous
 62
     7
370
    25
100
AcDbLine
 10
255.0874930577
 20
484.7782293829
 30
0.0
 11
255.0874930577
 21
359.7782293829
 31
0.0
  0
LINE
  5
B4
330
1F
100
AcDbEntity
  8
0
  6
Continuous
 62
     7
370
    25
100
AcDbLine
 10
480.2514467738
 20
46.928471786
 30
0.0
 11
657.2514467738
 21
46.928471786
 31
0.0
  0
LINE
  5
B5
330
1F
100
AcDbEntity
  8
0
  6
Continuous
 62
     7
370
    25
100
AcDbLine
 10
303.2514467738
 20
46.928471786
 30
0.0
 11
480.2514467738
 21
46.928471786
 31
0.0
  0
LINE
  5
B6
330
1F
100
AcDbEntity
  8
0
  6
Continuous
 62
     7
370
    25
100
AcDbLine
 10
480.2514467738
 20
171.928471786
 30
0.0
 11
303.2514467738
 21
171.928471786
 31
0.0
  0
LINE
  5
B7
330
1F
100
AcDbEntity
  8
0
  6
Continuous
 62
     7
370
    25
100
AcDbLine
 10
657.2514467738
 20
171.928471786
 30
0.0
 11
480.2514467738
 21
171.928471786
 31
0.0
  0
LINE
  5
B8
330
1F
100
AcDbEntity
  8
0
  6
Continuous
 62
     7
370
    25
100
AcDbLine
 10
657.2514467738
 20
171.928471786
 30
0.0
 11
657.2514467738
 21
46.928471786
 31
0.0
  0
LINE
  5
B9
330
1F
100
AcDbEntity
  8
0
  6
Continuous
 62
     7
370
    25
100
AcDbLine
 10
303.2514467738
 20
171.928471786
 30
0.0
 11
303.2514467738
 21
46.928471786
 31
0.0
  0
LINE
  5
BA
330
1F
100
AcDbEntity
  8
0
  6
Continuous
 62
     7
370
    25
100
AcDbLine
 10
14.5874930577
 20
-40.0818019981
 30
0.0
 11
14.5874930577
 21
-394.0818019981
 31
0.0
  0
LINE
  5
BB
330
1F
100
AcDbEntity
  8
0
  6
Continuous
 62
     7
370
    25
100
AcDbLine
 10
139.5874930577
 20
-154.5818019981
 30
0.0
 11
139.5874930577
 21
-40.0818019981
 31
0.0
  0
LINE
  5
BC
330
1F
100
AcDbEntity
  8
0
  6
Continuous
 62
     7
370
    25
100
AcDbLine
 10
139.5874930577
 20
-394.0818019981
 30
0.0
 11
139.5874930577
 21
-279.5818019981
 31
0.0
  0
LINE
  5
BD
330
1F
100
AcDbEntity
  8
0
  6
Continuous
 62
     7
370
    25
100
AcDbLine
 10
139.5874930577
 20
-279.5818019981
 30
0.0
 11
255.0874930577
 21
-279.5818019981
 31
0.0
  0
LINE
  5
BE
330
1F
100
AcDbEntity
  8
0
  6
Continuous
 62
     7
370
    25
100
AcDbLine
 10
255.0874930577
 20
-154.5818019981
 30
0.0
 11
139.5874930577
 21
-154.5818019981
 31
0.0
  0
LINE
  5
BF
330
1F
100
AcDbEntity
  8
0
  6
Continuous
 62
     7
370
    25
100
AcDbLine
 10
77.0874930577
 20
-217.0818019981
 30
0.0
 11
139.5874930577
 21
-279.5818019981
 31
0.0
  0
LINE
  5
C0
330
1F
100
AcDbEntity
  8
0
  6
Continuous
 62
     7
370
    25
100
AcDbLine
 10
139.5874930577
 20
-154.5818019981
 30
0.0
 11
77.0874930577
 21
-217.0818019981
 31
0.0
  0
LINE
  5
C1
330
1F
100
AcDbEntity
  8
0
  6
Continuous
 62
     7
370
    25
100
AcDbLine
 10
139.5874930577
 20
-394.0818019981
 30
0.0
 11
14.5874930577
 21
-394.0818019981
 31
0.0
  0
LINE
  5
C2
330
1F
100
AcDbEntity
  8
0
  6
Continuous
 62
     7
370
    25
100
AcDbLine
 10
139.5874930577
 20
-40.0818019981
 30
0.0
 11
14.5874930577
 21
-40.0818019981
 31
0.0
  0
LINE
  5
C3
330
1F
100
AcDbEntity
  8
0
  6
Continuous
 62
     7
370
    25
100
AcDbLine
 10
255.0874930577
 20
-154.5818019981
 30
0.0
 11
255.0874930577
 21
-279.5818019981
 31
0.0
  0
LINE
  5
C4
330
1F
100
AcDbEntity
  8
0
  6
Continuous
 62
     7
370
    25
100
AcDbLine
 10
528.434729777
 20
-234.3174083115
 30
0.0
 11
623.0522764333
 21
-179.6958612791
 31
0.0
  0
LINE
  5
C5
330
1F
100
AcDbEntity
  8
0
  6
Continuous
 62
     7
370
    25
100
AcDbLine
 10
560.5573556436
 20
-71.4397534815
 30
0.0
 11
465.9398089872
 21
-126.0613005139
 31
0.0
  0
LINE
  5
C6
330
1F
100
AcDbEntity
  8
0
  6
Continuous
 62
     7
370
    25
100
AcDbLine
 10
465.9398089872
 20
-126.0613005139
 30
0.0
 11
372.0293691121
 21
-71.8479575374
 31
0.0
  0
LINE
  5
C7
330
1F
100
AcDbEntity
  8
0
  6
Continuous
 62
     7
370
    25
100
AcDbLine
 10
622.3451696521
 20
-216.35219333
 30
0.0
 11
590.9499682333
 21
-198.2281293325
 31
0.0
  0
LINE
  5
C8
330
1F
100
AcDbEntity
  8
0
  6
Continuous
 62
     7
370
    25
100
AcDbLine
 10
309.5344483223
 20
-180.104065335
 30
0.0
 11
559.8502488624
 21
-324.6083011276
 31
0.0
  0
LWPOLYLINE
  5
C9
330
1F
100
AcDbEntity
  8
0
  6
Continuous
 62
     7
370
    25
100
AcDbPolyline
 90
       82
 70
   128
 43
0.0
 10
627.9379725571
 20
-146.4270346374
 10
627.8293180296
 20
-143.1309202128
 10
627.5040079084
 20
-139.7291791611
 10
626.9639986468
 20
-136.2422699532
 10
626.2125379239
 20
-132.6911632714
 10
625.2541451131
 20
-129.0972158891
 10
624.0945841014
 20
-125.4820422287
 10
622.7408286252
 20
-121.8673843701
 10
621.2010203293
 20
-118.2749812908
 10
619.4844198019
 20
-114.7264381258
 10
617.6013508805
 20
-111.2430962311
 10
615.5631385633
 20
-107.8459048347
 10
613.3820408989
 20
-104.5552950456
 10
611.0711752653
 20
-101.391056978
 10
608.6444394803
 20
-98.372220732
 10
606.1164282186
 20
-95.5169419442
 10
603.5023452372
 20
-92.8423925969
 10
600.8179119389
 20
-90.3646577448
 10
598.0792728213
 20
-88.0986387768
 10
595.3028983823
 20
-86.0579637975
 10
592.5054860645
 20
-84.2549056665
 10
589.7038598347
 20
-82.7003081874
 10
586.9148690027
 20
-81.4035208924
 10
584.1552868876
 20
-80.372342813
 10
581.4417099408
 20
-79.6129755753
 10
578.7904579335
 20
-79.1299861034
 10
576.2174758072
 20
-78.9262791527
 10
573.7382377791
 20
-79.0030798408
 10
571.3676542785
 20
-79.3599262794
 10
569.1199822734
 20
-79.9946723519
 10
567.0087395277
 20
-80.9035006208
 10
565.0466233038
 20
-82.0809452859
 10
563.2454339995
 20
-83.5199250566
 10
561.6160041792
 20
-85.2117857391
 10
560.1681334256
 20
-87.1463522842
 10
558.9105294037
 20
-89.3119899811
 10
557.8507554922
 20
-91.6956744298
 10
556.9951852959
 20
-94.2830698717
 10
556.3489643148
 20
-97.058615406
 10
555.9159789978
 20
-100.0056185754
 10
555.6988333697
 20
-103.106355756
 10
555.6988333697
 20
-106.3421787496
 10
555.9159789978
 20
-109.693626936
 10
556.3489643148
 20
-113.1405443114
 10
556.9951852959
 20
-116.6622007091
 10
557.8507554922
 20
-120.2374164732
 10
558.9105294038
 20
-123.8446898354
 10
560.1681334256
 20
-127.4623262293
 10
561.6160041792
 20
-131.0685687639
 10
563.2454339995
 20
-134.6417290723
 10
565.0466233038
 20
-138.160317748
 10
567.0087395277
 20
-141.6031735847
 10
569.1199822734
 20
-144.9495908421
 10
571.3676542785
 20
-148.1794437733
 10
573.7382377791
 20
-151.2733076627
 10
576.2174758072
 20
-154.2125756487
 10
578.7904579335
 20
-156.9795706279
 10
581.4417099408
 20
-159.5576515669
 10
584.1552868876
 20
-161.9313135835
 10
586.9148690027
 20
-164.0862811952
 10
589.7038598347
 20
-166.009594173
 10
592.5054860645
 20
-167.6896854866
 10
595.3028983823
 20
-169.1164508689
 10
598.0792728213
 20
-170.2813095852
 10
600.8179119389
 20
-171.1772560381
 10
603.5023452372
 20
-171.7989019001
 10
606.1164282186
 20
-172.1425085199
 10
608.6444394803
 20
-172.2060094069
 10
611.0711752653
 20
-171.9890226592
 10
613.3820408989
 20
-171.4928532607
 10
615.5631385633
 20
-170.7204852326
 10
617.6013508805
 20
-169.6765636869
 10
619.4844198019
 20
-168.3673668909
 10
621.2010203293
 20
-166.8007685079
 10
622.7408286252
 20
-164.9861902451
 10
624.0945841014
 20
-162.9345451895
 10
625.2541451131
 20
-160.6581721761
 10
626.2125379239
 20
-158.1707615799
 10
626.9639986468
 20
-155.4872729809
 10
627.5040079084
 20
-152.6238451953
 10
627.8293180296
 20
-149.5976992148
 10
627.9379725571
 20
-146.4270346374
  0
LWPOLYLINE
  5
CA
330
1F
100
AcDbEntity
  8
0
  6
Continuous
 62
     7
370
    25
100
AcDbPolyline
 90
       91
 70
   128
 43
0.0
 10
635.9989898626
 20
-151.0805608747
 10
635.8913350764
 20
-147.4584751079
 10
635.5688952009
 20
-143.7297402084
 10
635.033241131
 20
-139.9125221977
 10
634.2869825192
 20
-136.0254181784
 10
633.3337550627
 20
-132.0873657304
 10
632.1782027898
 20
-128.1175506496
 10
630.8259554349
 20
-124.1353134758
 10
629.2836010112
 20
-120.1600552683
 10
627.5586537145
 20
-116.2111430855
 10
625.6595173147
 20
-112.3078156307
 10
623.5954442132
 20
-108.4690895227
 10
621.3764903669
 20
-104.7136666494
 10
619.0134662958
 20
-101.0598430535
 10
616.5178844157
 20
-97.5254197963
 10
613.9019029505
 20
-94.1276162325
 10
611.1782666991
 20
-90.8829861197
 10
608.3602449435
 20
-87.8073369696
 10
605.4615668025
 20
-84.9156530356
 10
602.4963543444
 20
-82.2220223112
 10
599.4790537865
 20
-79.7395678946
 10
596.4243651137
 20
-77.4803840542
 10
593.3471704621
 20
-75.4554773064
 10
590.2624616148
 20
-73.6747127935
 10
587.1852669632
 20
-72.1467662212
 10
584.1305782904
 20
-70.8790815915
 10
581.1132777324
 20
-69.8778349365
 10
578.1480652744
 20
-69.1479042294
 10
575.2493871333
 20
-68.6928456191
 10
572.4313653777
 20
-68.5148761055
 10
569.7077291264
 20
-68.6148627381
 10
567.0917476612
 20
-68.9923183921
 10
564.5961657811
 20
-69.6454041415
 10
562.23314171
 20
-70.5709382182
 10
560.0141878636
 20
-71.7644115131
 10
557.9501147622
 20
-73.2200095445
 10
556.0509783623
 20
-74.9306407849
 10
554.3260310657
 20
-76.8879712109
 10
552.783676642
 20
-79.0824649055
 10
551.4314292871
 20
-81.5034305159
 10
550.2758770142
 20
-84.1390733411
 10
549.3226495576
 20
-86.9765527941
 10
548.5763909459
 20
-90.0020449603
 10
548.040736876
 20
-93.2008099459
 10
547.7182970005
 20
-96.5572636895
 10
547.6106422143
 20
-100.0550538858
 10
547.7182970005
 20
-103.6771396527
 10
548.040736876
 20
-107.4058745522
 10
548.5763909459
 20
-111.2230925629
 10
549.3226495576
 20
-115.1101965822
 10
550.2758770142
 20
-119.0482490301
 10
551.4314292871
 20
-123.018064111
 10
552.783676642
 20
-127.0003012848
 10
554.3260310657
 20
-130.9755594923
 10
556.0509783623
 20
-134.9244716751
 10
557.9501147622
 20
-138.8277991299
 10
560.0141878636
 20
-142.6665252379
 10
562.23314171
 20
-146.4219481112
 10
564.5961657811
 20
-150.0757717071
 10
567.0917476612
 20
-153.6101949643
 10
569.7077291264
 20
-157.007998528
 10
572.4313653778
 20
-160.2526286409
 10
575.2493871333
 20
-163.328277791
 10
578.1480652744
 20
-166.219961725
 10
581.1132777324
 20
-168.9135924494
 10
584.1305782904
 20
-171.396046866
 10
587.1852669632
 20
-173.6552307064
 10
590.2624616148
 20
-175.6801374542
 10
593.3471704621
 20
-177.4609019671
 10
596.4243651137
 20
-178.9888485394
 10
599.4790537865
 20
-180.2565331691
 10
602.4963543444
 20
-181.2577798241
 10
605.4615668025
 20
-181.9877105312
 10
608.3602449435
 20
-182.4427691415
 10
611.1782666991
 20
-182.6207386551
 10
613.9019029505
 20
-182.5207520225
 10
616.5178844157
 20
-182.1432963685
 10
619.0134662958
 20
-181.4902106191
 10
621.3764903669
 20
-180.5646765424
 10
623.5954442132
 20
-179.3712032474
 10
625.6595173147
 20
-177.9156052161
 10
627.5586537145
 20
-176.2049739757
 10
629.2836010112
 20
-174.2476435497
 10
630.8259554349
 20
-172.0531498551
 10
632.1782027898
 20
-169.6321842447
 10
633.3337550627
 20
-166.9965414195
 10
634.2869825192
 20
-164.1590619665
 10
635.033241131
 20
-161.1335698003
 10
635.5688952009
 20
-157.9348048147
 10
635.8913350764
 20
-154.5783510711
 10
635.9989898626
 20
-151.0805608747
  0
ELLIPSE
  5
CB
330
1F
100
AcDbEntity
  8
0
  6
Continuous
 62
     7
370
    25
100
AcDbEllipse
 10
465.9398089872
 20
-198.2281293325
 30
0.0
 11
88.38834764831847
 21
1.421085471520200E-13
 31
0.0
210
0.0
220
0.0
230
1.0
 40
0.5773815452
 41
4.712388980384697
 42
5.49770587972005
  0
LINE
  5
CC
330
1F
100
AcDbEntity
  8
0
  6
Continuous
 62
     7
370
    25
100
AcDbLine
 10
465.9398089872
 20
-126.0613005139
 30
0.0
 11
465.9398089872
 21
-249.2619300754
 31
0.0
  0
LWPOLYLINE
  5
CD
330
1F
100
AcDbEntity
  8
0
  6
Continuous
 62
     7
370
    25
100
AcDbPolyline
 90
       82
 70
   128
 43
0.0
 10
376.9150652359
 20
-105.1167841791
 10
376.8064107084
 20
-101.9461196017
 10
376.4811005872
 20
-98.9199736212
 10
375.9410913255
 20
-96.0565458356
 10
375.1896306027
 20
-93.3730572366
 10
374.2312377919
 20
-90.8856466404
 10
373.0716767802
 20
-88.609273627
 10
371.717921304
 20
-86.5576285714
 10
370.1781130081
 20
-84.7430503086
 10
368.4615124807
 20
-83.1764519256
 10
366.5784435593
 20
-81.8672551296
 10
364.5402312421
 20
-80.8233335839
 10
362.3591335777
 20
-80.0509655558
 10
360.0482679441
 20
-79.5547961573
 10
357.6215321591
 20
-79.3378094096
 10
355.0935208974
 20
-79.4013102966
 10
352.479437916
 20
-79.7449169164
 10
349.7950046177
 20
-80.3665627784
 10
347.0563655
 20
-81.2625092313
 10
344.279991061
 20
-82.4273679475
 10
341.4825787432
 20
-83.8541333299
 10
338.6809525134
 20
-85.5342246434
 10
335.8919616815
 20
-87.4575376213
 10
333.1323795664
 20
-89.612505233
 10
330.4188026196
 20
-91.9861672496
 10
327.7675506123
 20
-94.5642481886
 10
325.194568486
 20
-97.3312431678
 10
322.7153304579
 20
-100.2705111538
 10
320.3447469572
 20
-103.3643750431
 10
318.0970749521
 20
-106.5942279743
 10
315.9858322065
 20
-109.9406452318
 10
314.0237159826
 20
-113.3835010685
 10
312.2225266783
 20
-116.9020897441
 10
310.593096858
 20
-120.4752500526
 10
309.1452261044
 20
-124.0814925872
 10
307.8876220825
 20
-127.6991289811
 10
306.827848171
 20
-131.3064023433
 10
305.9722779747
 20
-134.8816181074
 10
305.3260569936
 20
-138.4032745051
 10
304.8930716766
 20
-141.8501918805
 10
304.6759260485
 20
-145.2016400668
 10
304.6759260485
 20
-148.4374630604
 10
304.8930716766
 20
-151.5382002411
 10
305.3260569936
 20
-154.4852034105
 10
305.9722779747
 20
-157.2607489448
 10
306.827848171
 20
-159.8481443867
 10
307.8876220825
 20
-162.2318288354
 10
309.1452261044
 20
-164.3974665323
 10
310.593096858
 20
-166.3320330774
 10
312.2225266783
 20
-168.0238937599
 10
314.0237159826
 20
-169.4628735305
 10
315.9858322065
 20
-170.6403181957
 10
318.0970749521
 20
-171.5491464646
 10
320.3447469572
 20
-172.1838925371
 10
322.7153304579
 20
-172.5407389757
 10
325.194568486
 20
-172.6175396638
 10
327.7675506123
 20
-172.4138327131
 10
330.4188026196
 20
-171.9308432412
 10
333.1323795664
 20
-171.1714760035
 10
335.8919616815
 20
-170.1402979241
 10
338.6809525134
 20
-168.8435106291
 10
341.4825787432
 20
-167.28891315
 10
344.279991061
 20
-165.4858550189
 10
347.0563655
 20
-163.4451800397
 10
349.7950046177
 20
-161.1791610717
 10
352.479437916
 20
-158.7014262196
 10
355.0935208974
 20
-156.0268768723
 10
357.6215321591
 20
-153.1715980845
 10
360.0482679441
 20
-150.1527618385
 10
362.3591335777
 20
-146.9885237709
 10
364.5402312421
 20
-143.6979139817
 10
366.5784435593
 20
-140.3007225854
 10
368.4615124807
 20
-136.8173806907
 10
370.1781130081
 20
-133.2688375257
 10
371.717921304
 20
-129.6764344464
 10
373.0716767802
 20
-126.0617765878
 10
374.2312377919
 20
-122.4466029274
 10
375.1896306027
 20
-118.8526555451
 10
375.9410913255
 20
-115.3015488633
 10
376.4811005872
 20
-111.8146396554
 10
376.8064107084
 20
-108.4128986037
 10
376.9150652359
 20
-105.1167841791
  0
LWPOLYLINE
  5
CE
330
1F
100
AcDbEntity
  8
0
  6
Continuous
 62
     7
370
    25
100
AcDbPolyline
 90
       91
 70
   128
 43
0.0
 10
384.9760825414
 20
-100.4632579417
 10
384.8684277551
 20
-96.9654677454
 10
384.5459878797
 20
-93.6090140018
 10
384.0103338097
 20
-90.4102490162
 10
383.264075198
 20
-87.38475685
 10
382.3108477415
 20
-84.547277397
 10
381.1552954685
 20
-81.9116345718
 10
379.8030481136
 20
-79.4906689614
 10
378.26069369
 20
-77.2961752668
 10
376.5357463933
 20
-75.3388448408
 10
374.6366099934
 20
-73.6282136004
 10
372.572536892
 20
-72.172615569
 10
370.3535830457
 20
-70.9791422741
 10
367.9905589746
 20
-70.0536081974
 10
365.4949770944
 20
-69.400522448
 10
362.8789956293
 20
-69.023066794
 10
360.1553593779
 20
-68.9230801614
 10
357.3373376223
 20
-69.101049675
 10
354.4386594812
 20
-69.5561082853
 10
351.4734470232
 20
-70.2860389924
 10
348.4561464653
 20
-71.2872856474
 10
345.4014577924
 20
-72.5549702771
 10
342.3242631409
 20
-74.0829168494
 10
339.2395542936
 20
-75.8636813623
 10
336.162359642
 20
-77.8885881101
 10
333.1076709692
 20
-80.1477719505
 10
330.0903704112
 20
-82.6302263671
 10
327.1251579532
 20
-85.3238570915
 10
324.2264798121
 20
-88.2155410255
 10
321.4084580565
 20
-91.2911901756
 10
318.6848218051
 20
-94.5358202884
 10
316.06884034
 20
-97.9336238522
 10
313.5732584598
 20
-101.4680471094
 10
311.2102343887
 20
-105.1218707053
 10
308.9912805424
 20
-108.8772935786
 10
306.927207441
 20
-112.7160196866
 10
305.0280710411
 20
-116.6193471414
 10
303.3031237444
 20
-120.5682593242
 10
301.7607693208
 20
-124.5435175317
 10
300.4085219659
 20
-128.5257547055
 10
299.2529696929
 20
-132.4955697863
 10
298.2997422364
 20
-136.4336222343
 10
297.5534836247
 20
-140.3207262536
 10
297.0178295547
 20
-144.1379442643
 10
296.6953896793
 20
-147.8666791638
 10
296.5877348931
 20
-151.4887649307
 10
296.6953896793
 20
-154.986555127
 10
297.0178295547
 20
-158.3430088706
 10
297.5534836247
 20
-161.5417738562
 10
298.2997422364
 20
-164.5672660224
 10
299.2529696929
 20
-167.4047454754
 10
300.4085219659
 20
-170.0403883006
 10
301.7607693208
 20
-172.461353911
 10
303.3031237444
 20
-174.6558476056
 10
305.0280710411
 20
-176.6131780316
 10
306.927207441
 20
-178.323809272
 10
308.9912805424
 20
-179.7794073034
 10
311.2102343887
 20
-180.9728805983
 10
313.5732584598
 20
-181.898414675
 10
316.06884034
 20
-182.5515004244
 10
318.6848218051
 20
-182.9289560784
 10
321.4084580565
 20
-183.028942711
 10
324.2264798121
 20
-182.8509731974
 10
327.1251579532
 20
-182.3959145871
 10
330.0903704112
 20
-181.66598388
 10
333.1076709692
 20
-180.664737225
 10
336.162359642
 20
-179.3970525953
 10
339.2395542936
 20
-177.869106023
 10
342.3242631409
 20
-176.0883415101
 10
345.4014577924
 20
-174.0634347623
 10
348.4561464653
 20
-171.8042509219
 10
351.4734470232
 20
-169.3217965053
 10
354.4386594812
 20
-166.6281657809
 10
357.3373376223
 20
-163.7364818469
 10
360.1553593779
 20
-160.6608326968
 10
362.8789956293
 20
-157.416202584
 10
365.4949770944
 20
-154.0183990202
 10
367.9905589746
 20
-150.483975763
 10
370.3535830457
 20
-146.8301521671
 10
372.572536892
 20
-143.0747292938
 10
374.6366099934
 20
-139.2360031858
 10
376.5357463933
 20
-135.332675731
 10
378.26069369
 20
-131.3837635482
 10
379.8030481136
 20
-127.4085053407
 10
381.1552954685
 20
-123.4262681669
 10
382.3108477415
 20
-119.4564530861
 10
383.264075198
 20
-115.5184006381
 10
384.0103338097
 20
-111.6312966188
 10
384.5459878797
 20
-107.8140786081
 10
384.8684277551
 20
-104.0853437086
 10
384.9760825414
 20
-100.4632579417
  0
LWPOLYLINE
  5
CF
330
1F
100
AcDbEntity
  8
0
  6
Continuous
 62
     7
370
    25
100
AcDbPolyline
 90
       13
 70
   128
 43
0.0
 10
635.2918830814
 20
-244.9674937344
 10
635.1842282952
 20
-241.469703538
 10
634.8617884197
 20
-238.1132497944
 10
634.3261343498
 20
-234.9144848088
 10
633.5798757381
 20
-231.8889926426
 10
632.6266482815
 20
-229.0515131896
 10
631.4710960086
 20
-226.4158703645
 10
630.1188486537
 20
-223.994904754
 10
628.57649423
 20
-221.8004110595
 10
626.8515469334
 20
-219.8430806334
 10
624.9524105335
 20
-218.132449393
 10
622.8883374321
 20
-216.6768513617
 10
622.3451696521
 20
-216.35219333
  0
LWPOLYLINE
  5
D0
330
1F
100
AcDbEntity
  8
0
  6
Continuous
 62
     7
370
    25
100
AcDbPolyline
 90
       35
 70
   128
 43
0.0
 10
559.8502488624
 20
-324.6083011276
 10
561.5260349288
 20
-325.477116391
 10
563.8890589999
 20
-326.4026504676
 10
566.38464088
 20
-327.055736217
 10
569.0006223452
 20
-327.433191871
 10
571.7242585966
 20
-327.5331785036
 10
574.5422803522
 20
-327.35520899
 10
577.4409584932
 20
-326.9001503797
 10
580.4061709513
 20
-326.1702196726
 10
583.4234715092
 20
-325.1689730176
 10
586.478160182
 20
-323.901288388
 10
589.5553548336
 20
-322.3733418156
 10
592.6400636809
 20
-320.5925773027
 10
595.7172583325
 20
-318.567670555
 10
598.7719470053
 20
-316.3084867145
 10
601.7892475633
 20
-313.8260322979
 10
604.7544600213
 20
-311.1324015735
 10
607.6531381624
 20
-308.2407176396
 10
610.4711599179
 20
-305.1650684894
 10
613.1947961693
 20
-301.9204383766
 10
615.8107776345
 20
-298.5226348128
 10
618.3063595146
 20
-294.9882115556
 10
620.6693835857
 20
-291.3343879597
 10
622.8883374321
 20
-287.5789650864
 10
624.9524105335
 20
-283.7402389784
 10
626.8515469334
 20
-279.8369115236
 10
628.57649423
 20
-275.8879993408
 10
630.1188486537
 20
-271.9127411333
 10
631.4710960086
 20
-267.9305039595
 10
632.6266482815
 20
-263.9606888787
 10
633.5798757381
 20
-260.0226364307
 10
634.3261343498
 20
-256.1355324114
 10
634.8617884197
 20
-252.3183144007
 10
635.1842282952
 20
-248.5895795012
 10
635.2918830814
 20
-244.9674937344
  0
ENDSEC
  0
SECTION
  2
OBJECTS
  0
DICTIONARY
  5
C
330
0
100
AcDbDictionary
281
     1
  3
ACAD_GROUP
350
D
  3
ACAD_LAYOUT
350
1A
  3
ACAD_MLINESTYLE
350
17
  3
ACAD_PLOTSETTINGS
350
19
  3
ACAD_PLOTSTYLENAME
350
E
  3
ACAD_SCALELIST
350
47
  3
DWGPROPS
350
D1
  0
DICTIONARY
  5
D
102
{ACAD_REACTORS
330
C
102
}
330
C
100
AcDbDictionary
281
     1
  0
DICTIONARY
  5
1A
102
{ACAD_REACTORS
330
C
102
}
330
C
100
AcDbDictionary
281
     1
  3
Layout1
350
1E
  3
Layout2
350
26
  3
Model
350
22
  0
DICTIONARY
  5
17
102
{ACAD_REACTORS
330
C
102
}
330
C
100
AcDbDictionary
281
     1
  3
Standard
350
18
  0
DICTIONARY
  5
19
102
{ACAD_REACTORS
330
C
102
}
330
C
100
AcDbDictionary
281
     1
  0
ACDBDICTIONARYWDFLT
  5
E
102
{ACAD_REACTORS
330
C
102
}
330
C
100
AcDbDictionary
281
     1
  3
Normal
350
F
100
AcDbDictionaryWithDefault
340
F
  0
DICTIONARY
  5
47
102
{ACAD_REACTORS
330
C
102
}
330
C
100
AcDbDictionary
281
     1
  3
A0
350
48
  3
A1
350
49
  3
A2
350
4A
  3
A3
350
4B
  3
A4
350
4C
  3
A5
350
4D
  3
A6
350
4E
  3
A7
350
4F
  3
A8
350
50
  3
A9
350
51
  3
B0
350
52
  3
B1
350
53
  3
B2
350
54
  3
B3
350
55
  3
B4
350
56
  3
B5
350
57
  3
B6
350
58
  3
B7
350
59
  3
B8
350
5A
  3
B9
350
5B
  3
C0
350
5C
  3
C1
350
5D
  3
C2
350
5E
  3
C3
350
5F
  3
C4
350
60
  3
C5
350
61
  3
C6
350
62
  3
C7
350
63
  3
C8
350
64
  3
C9
350
65
  3
D0
350
66
  3
D1
350
67
  3
D2
350
68
  0
XRECORD
  5
D1
102
{ACAD_REACTORS
330
C
102
}
330
C
100
AcDbXrecord
280
     1
  1
DWGPROPS COOKIE
  2

  3

  4

  6

  7

  8
b.kav
  9

300
=
301
=
302
=
303
=
304
=
305
=
306
=
307
=
308
=
309
=
 40
0.0
 41
2460608.405317917
 42
2460608.405318102
  1

 90
        0
  0
LAYOUT
  5
1E
102
{ACAD_REACTORS
330
1A
102
}
330
1A
100
AcDbPlotSettings
  1

  2
none_device
  4

  6

 40
0.0
 41
0.0
 42
0.0
 43
0.0
 44
0.0
 45
0.0
 46
0.0
 47
0.0
 48
0.0
 49
0.0
140
0.0
141
0.0
142
1.0
143
1.0
 70
   688
 72
     1
 73
     0
 74
     5
  7

 75
    16
147
1.0
148
0.0
149
0.0
100
AcDbLayout
  1
Layout1
 70
     1
 71
     1
 10
0.0
 20
0.0
 11
420.0
 21
297.0
 12
0.0
 22
0.0
 32
0.0
 14
1.0000000000E+20
 24
1.0000000000E+20
 34
1.0000000000E+20
 15
-1.0000000000E+20
 25
-1.0000000000E+20
 35
-1.0000000000E+20
146
0.0
 13
0.0
 23
0.0
 33
0.0
 16
1.0
 26
0.0
 36
0.0
 17
0.0
 27
1.0
 37
0.0
 76
     0
330
1B
  0
LAYOUT
  5
26
102
{ACAD_REACTORS
330
1A
102
}
330
1A
100
AcDbPlotSettings
  1

  2
none_device
  4

  6

 40
0.0
 41
0.0
 42
0.0
 43
0.0
 44
0.0
 45
0.0
 46
0.0
 47
0.0
 48
0.0
 49
0.0
140
0.0
141
0.0
142
1.0
143
1.0
 70
   688
 72
     1
 73
     0
 74
     5
  7

 75
    16
147
1.0
148
0.0
149
0.0
100
AcDbLayout
  1
Layout2
 70
     1
 71
     2
 10
0.0
 20
0.0
 11
0.0
 21
0.0
 12
0.0
 22
0.0
 32
0.0
 14
0.0
 24
0.0
 34
0.0
 15
0.0
 25
0.0
 35
0.0
146
0.0
 13
0.0
 23
0.0
 33
0.0
 16
1.0
 26
0.0
 36
0.0
 17
0.0
 27
1.0
 37
0.0
 76
     0
330
23
  0
LAYOUT
  5
22
102
{ACAD_REACTORS
330
1A
102
}
330
1A
100
AcDbPlotSettings
  1

  2
none_device
  4
Letter_(8.50_x_11.00_Inches)
  6

 40
6.35
 41
6.35
 42
6.35000508
 43
6.35000508
 44
215.9
 45
279.4
 46
0.0
 47
0.0
 48
0.0
 49
0.0
140
0.0
141
0.0
142
1.0
143
1.0
 70
  1712
 72
     1
 73
     0
 74
     0
  7

 75
     0
147
1.0
148
0.0
149
0.0
100
AcDbLayout
  1
Model
 70
     1
 71
     0
 10
0.0
 20
0.0
 11
279.4
 21
215.9
 12
0.0
 22
0.0
 32
0.0
 14
0.0
 24
0.0
 34
0.0
 15
279.4
 25
215.9
 35
0.0
146
0.0
 13
0.0
 23
0.0
 33
0.0
 16
1.0
 26
0.0
 36
0.0
 17
0.0
 27
1.0
 37
0.0
 76
     0
330
1F
331
29
  0
MLINESTYLE
  5
18
102
{ACAD_REACTORS
330
17
102
}
330
17
100
AcDbMlineStyle
  2
Standard
 70
     0
  3

 62
   256
 51
90.0
 52
90.0
 71
     2
 49
0.5
 62
   256
  6
BYLAYER
 49
-0.5
 62
   256
  6
BYLAYER
  0
ACDBPLACEHOLDER
  5
F
102
{ACAD_REACTORS
330
E
102
}
330
E
  0
SCALE
  5
48
102
{ACAD_REACTORS
330
47
102
}
330
47
100
AcDbScale
 70
     0
300
1:1
140
1.0
141
1.0
290
     1
  0
SCALE
  5
49
102
{ACAD_REACTORS
330
47
102
}
330
47
100
AcDbScale
 70
     0
300
1:2
140
1.0
141
2.0
290
     0
  0
SCALE
  5
4A
102
{ACAD_REACTORS
330
47
102
}
330
47
100
AcDbScale
 70
     0
300
1:4
140
1.0
141
4.0
290
     0
  0
SCALE
  5
4B
102
{ACAD_REACTORS
330
47
102
}
330
47
100
AcDbScale
 70
     0
300
1:5
140
1.0
141
5.0
290
     0
  0
SCALE
  5
4C
102
{ACAD_REACTORS
330
47
102
}
330
47
100
AcDbScale
 70
     0
300
1:8
140
1.0
141
8.0
290
     0
  0
SCALE
  5
4D
102
{ACAD_REACTORS
330
47
102
}
330
47
100
AcDbScale
 70
     0
300
1:10
140
1.0
141
10.0
290
     0
  0
SCALE
  5
4E
102
{ACAD_REACTORS
330
47
102
}
330
47
100
AcDbScale
 70
     0
300
1:16
140
1.0
141
16.0
290
     0
  0
SCALE
  5
4F
102
{ACAD_REACTORS
330
47
102
}
330
47
100
AcDbScale
 70
     0
300
1:20
140
1.0
141
20.0
290
     0
  0
SCALE
  5
50
102
{ACAD_REACTORS
330
47
102
}
330
47
100
AcDbScale
 70
     0
300
1:30
140
1.0
141
30.0
290
     0
  0
SCALE
  5
51
102
{ACAD_REACTORS
330
47
102
}
330
47
100
AcDbScale
 70
     0
300
1:40
140
1.0
141
40.0
290
     0
  0
SCALE
  5
52
102
{ACAD_REACTORS
330
47
102
}
330
47
100
AcDbScale
 70
     0
300
1:50
140
1.0
141
50.0
290
     0
  0
SCALE
  5
53
102
{ACAD_REACTORS
330
47
102
}
330
47
100
AcDbScale
 70
     0
300
1:100
140
1.0
141
100.0
290
     0
  0
SCALE
  5
54
102
{ACAD_REACTORS
330
47
102
}
330
47
100
AcDbScale
 70
     0
300
2:1
140
2.0
141
1.0
290
     0
  0
SCALE
  5
55
102
{ACAD_REACTORS
330
47
102
}
330
47
100
AcDbScale
 70
     0
300
4:1
140
4.0
141
1.0
290
     0
  0
SCALE
  5
56
102
{ACAD_REACTORS
330
47
102
}
330
47
100
AcDbScale
 70
     0
300
8:1
140
8.0
141
1.0
290
     0
  0
SCALE
  5
57
102
{ACAD_REACTORS
330
47
102
}
330
47
100
AcDbScale
 70
     0
300
10:1
140
10.0
141
1.0
290
     0
  0
SCALE
  5
58
102
{ACAD_REACTORS
330
47
102
}
330
47
100
AcDbScale
 70
     0
300
100:1
140
100.0
141
1.0
290
     0
  0
SCALE
  5
59
102
{ACAD_REACTORS
330
47
102
}
330
47
100
AcDbScale
 70
     0
300
1/128" = 1'-0"
140
0.0078125
141
12.0
290
     0
  0
SCALE
  5
5A
102
{ACAD_REACTORS
330
47
102
}
330
47
100
AcDbScale
 70
     0
300
1/64" = 1'-0"
140
0.015625
141
12.0
290
     0
  0
SCALE
  5
5B
102
{ACAD_REACTORS
330
47
102
}
330
47
100
AcDbScale
 70
     0
300
1/32" = 1'-0"
140
0.03125
141
12.0
290
     0
  0
SCALE
  5
5C
102
{ACAD_REACTORS
330
47
102
}
330
47
100
AcDbScale
 70
     0
300
1/16" = 1'-0"
140
0.0625
141
12.0
290
     0
  0
SCALE
  5
5D
102
{ACAD_REACTORS
330
47
102
}
330
47
100
AcDbScale
 70
     0
300
3/32" = 1'-0"
140
0.09375
141
12.0
290
     0
  0
SCALE
  5
5E
102
{ACAD_REACTORS
330
47
102
}
330
47
100
AcDbScale
 70
     0
300
1/8" = 1'-0"
140
0.125
141
12.0
290
     0
  0
SCALE
  5
5F
102
{ACAD_REACTORS
330
47
102
}
330
47
100
AcDbScale
 70
     0
300
3/16" = 1'-0"
140
0.1875
141
12.0
290
     0
  0
SCALE
  5
60
102
{ACAD_REACTORS
330
47
102
}
330
47
100
AcDbScale
 70
     0
300
1/4" = 1'-0"
140
0.25
141
12.0
290
     0
  0
SCALE
  5
61
102
{ACAD_REACTORS
330
47
102
}
330
47
100
AcDbScale
 70
     0
300
3/8" = 1'-0"
140
0.375
141
12.0
290
     0
  0
SCALE
  5
62
102
{ACAD_REACTORS
330
47
102
}
330
47
100
AcDbScale
 70
     0
300
1/2" = 1'-0"
140
0.5
141
12.0
290
     0
  0
SCALE
  5
63
102
{ACAD_REACTORS
330
47
102
}
330
47
100
AcDbScale
 70
     0
300
3/4" = 1'-0"
140
0.75
141
12.0
290
     0
  0
SCALE
  5
64
102
{ACAD_REACTORS
330
47
102
}
330
47
100
AcDbScale
 70
     0
300
1" = 1'-0"
140
1.0
141
12.0
290
     0
  0
SCALE
  5
65
102
{ACAD_REACTORS
330
47
102
}
330
47
100
AcDbScale
 70
     0
300
1-1/2" = 1'-0"
140
1.5
141
12.0
290
     0
  0
SCALE
  5
66
102
{ACAD_REACTORS
330
47
102
}
330
47
100
AcDbScale
 70
     0
300
3" = 1'-0"
140
3.0
141
12.0
290
     0
  0
SCALE
  5
67
102
{ACAD_REACTORS
330
47
102
}
330
47
100
AcDbScale
 70
     0
300
6" = 1'-0"
140
6.0
141
12.0
290
     0
  0
SCALE
  5
68
102
{ACAD_REACTORS
330
47
102
}
330
47
100
AcDbScale
 70
     0
300
1'-0" = 1'-0"
140
12.0
141
12.0
290
     0
  0
ENDSEC
  0
EOF
